Metal4ever

للكل .. نطّو هون http://metalforever.co.cc/phpBB/index.php?sid=3bd5f95ce296581d106e02f291251888 أو هون http://metalforever.co.cc/

    Reading tabs

    شاطر
    avatar
    Diablo
    عضو جديد
    عضو جديد

    عدد المساهمات : 72
    نقاط : 5997
    الخبرة : 0
    تاريخ التسجيل : 26/10/2009
    العمر : 25

    Reading tabs

    مُساهمة من طرف Diablo في الثلاثاء ديسمبر 15, 2009 6:11 am

    هاد الموضوع للي ما عندون فكرة عن العزف علغيتار نهائيا و حابين يتعللمو شوية اساسيات
    واحد من اهم الاشياء وأبسطا هو قراءة التابس (شي بيشبه النوتة الموسيقية بيستخدمو بالغيتار) ورح قدم شرح بسيط عنون
    اول شي
    e-------------------------------------------------------------
    B------------------------------------------------------------
    G------------------------------------------------------------
    D------------------------------------------------------------
    A------------------------------------------------------------
    E-------------------------------------------------------------
    هالخطوط بتمثل اوتار الغيتار
    و لكن ترتيبا معكوس عن ترتيب الاوتار عل غيتار لما بتمسكو بالطريقة الصحيحة
    يعني الوتر(السادس) اللي هون اخر واحد من تحت هو بالفعل اول وتر من فوق عل غيتار يلي هوي الوتر التخين واسموE
    الوتر(الخامس) اللي فوقو هون هوي الوتر اللي تحتو عل غيتار و هو ارفع منو بشوي و اسموA
    و هيك على هل نمط ما بعتقد في داعي كممل كل الاوتار و بتقدرو تشوفو اسمائون فوق ازا بدكون
    اوك هللق تاني شي
    e------------------------------------------------------0-1--2
    B---------------------------------------------0--1--2--------
    G----------------------------------0---1---2-----------------
    D-----------------------0---1---2----------------------------
    A------------0---1---2---------------------------------------
    E-0---1---2--------------------------------------------------
    هون في شي جديد
    الارقام اللي على الاوتار واللي هني بيدلو عل خانات اللي ع زند الغيتار
    يعني لما منشوف رقم 0 عل وتر السادس(التخين) يعني مندق الوتر بايدنا اليمين بدون ما نحط ايدنا اليسار على اي خانة عل زند و منتركو حر
    اما لما بيكون في رقم 1 منحط اصبع اليسار (السبابة عادة) على اول خانة اللي هي الواسعة على طرف الزند عند الراس
    رقم 2 مننزل خانة لتحت عل تانية
    كمان مننزل علي بعدا عند ال3
    و هيك
    هللق المفروض صرتو بتعرفو تقرو التابس
    و هي تمرين خفيف و ظريف(و مؤلم احيانا للمبتدئين) بس كويس
    e-----------------------------------------------1-2-3-4-----------------------------------------------------
    B-------------------------------------1-2-3-4----------4-3-2-1---------------------------------------------
    G----------------------------1-2-3-4----------------------------4-3-2-1-------------------------------------
    D-------------------1-2-3-4-----------------------------------------------4-3-2-1----------------------------
    A----------1-2-3-4-----------------------------------------------------------------4-3-2-1--------------------
    E-1-2-3-4------------------------------------------------------------------------------------4-3-2-1-----------
    ولتحقيق الفائدة لازم كل خانة تحطو عليا اصبع غير(1 السبابة 2 الوسطى 3 الخنصر(تبع الخاتم) 4 البنصر(الصغير)) لتقوية كل اصابع اليد اليسرى
    و هيك بتكونو عرفتو شي مهم من اساسيات العزف و بشكل عام صار فيكون تعزفو بعد ما تقوو اصابعكون شوي
    و بتمنا تكونو استفدتو
    avatar
    Diablo
    عضو جديد
    عضو جديد

    عدد المساهمات : 72
    نقاط : 5997
    الخبرة : 0
    تاريخ التسجيل : 26/10/2009
    العمر : 25

    رد: Reading tabs

    مُساهمة من طرف Diablo في الثلاثاء ديسمبر 15, 2009 6:17 am

    يا الهي شو هادا ؟؟ طلعو فايتين ب 1000 حيط بعد الارسال بس ما بأة عندي حيل صححون ضليت ساعة عم اكتب فيون...يلا يمكن اساتون بينفهمو
    avatar
    Cradle Of Hate
    Circle Of Revenge
    Circle Of Revenge

    عدد المساهمات : 453
    نقاط : 6544
    الخبرة : 1
    تاريخ التسجيل : 15/10/2009
    العمر : 27
    الموقع : Lattakia .... Syria

    رد: Reading tabs

    مُساهمة من طرف Cradle Of Hate في الجمعة ديسمبر 18, 2009 3:26 pm

    على فكرة موضوعك هادا مادة لحالو وبد واحد يسجل بمعهد ويحط استاذا خصوصي ولازم تقسمو عاكذا سنة وتعملو كلية وتسما كلية دايبلو بالعزف لأنو عنجد وجعني راسي من هالحكي يا محلا الراب كلا عبعضة طرقة كل ثانيتين

      الوقت/التاريخ الآن هو السبت سبتمبر 23, 2017 7:23 pm